ISO-10303-21;
HEADER;
FILE_DESCRIPTION (( 'STEP AP203' ),
    '1' );
FILE_NAME ('GSB JT33.STEP',
    '2009-07-30T04:00:51',
    ( ' ' ),
    ( '' ),
    'SwSTEP 2.0',
    'SolidWorks 2007',
    '' );
FILE_SCHEMA (( 'CONFIG_CONTROL_DESIGN' ));
ENDSEC;

DATA;
#1 = VERTEX_POINT ( 'NONE', #129 ) ;
#2 = EDGE_CURVE ( 'NONE', #7, #6, #205, .T. ) ;
#3 = EDGE_LOOP ( 'NONE', ( #125, #126 ) ) ;
#4 = EDGE_CURVE ( 'NONE', #81, #165, #201, .T. ) ;
#5 = ORIENTED_EDGE ( 'NONE', *, *, #4, .F. ) ;
#6 = VERTEX_POINT ( 'NONE', #196 ) ;
#7 = VERTEX_POINT ( 'NONE', #195 ) ;
#8 = ORIENTED_EDGE ( 'NONE', *, *, #9, .T. ) ;
#9 = EDGE_CURVE ( 'NONE', #7, #1, #194, .T. ) ;
#10 = ORIENTED_EDGE ( 'NONE', *, *, #2, .F. ) ;
#11 = ORIENTED_EDGE ( 'NONE', *, *, #12, .T. ) ;
#12 = EDGE_CURVE ( 'NONE', #1, #6, #190, .T. ) ;
#13 = EDGE_LOOP ( 'NONE', ( #15, #156, #236, #157 ) ) ;
#14 = ADVANCED_FACE ( 'NONE', ( #76 ), #75, .F. ) ;
#15 = ORIENTED_EDGE ( 'NONE', *, *, #12, .F. ) ;
#16 = EDGE_LOOP ( 'NONE', ( #10, #8, #11 ) ) ;
#17 = MANIFOLD_SOLID_BREP ( 'NONE', #180 ) ;
#18 = DIRECTION ( 'NONE',  ( 0.0000000000000000000, 0.0000000000000000000, -1.000000000000000000 ) ) ;
#19 = DIRECTION ( 'NONE',  ( 1.000000000000000000, 0.0000000000000000000, 0.0000000000000000000 ) ) ;
#20 = CARTESIAN_POINT ( 'NONE',  ( -0.1968503937007873800, 0.0000000000000000000, 0.0000000000000000000 ) ) ;
#21 = AXIS2_PLACEMENT_3D ( 'NONE', #20, #19, #18 ) ;
#22 = CARTESIAN_POINT ( 'NONE',  ( -0.1968503937007873800, 0.0000000000000000000, 0.0000000000000000000 ) ) ;
#23 = CONICAL_SURFACE ( 'NONE', #21, 0.3125000000000000000, 0.02845783257684384900 ) ;
#24 = FACE_OUTER_BOUND ( 'NONE', #127, .T. ) ;
#25 = DIRECTION ( 'NONE',  ( 0.0000000000000000000, 0.0000000000000000000, -1.000000000000000000 ) ) ;
#26 = DIRECTION ( 'NONE',  ( 1.000000000000000000, 0.0000000000000000000, 0.0000000000000000000 ) ) ;
#27 = CARTESIAN_POINT ( 'NONE',  ( -1.338582677165354400, 0.0000000000000000000, 0.0000000000000000000 ) ) ;
#28 = AXIS2_PLACEMENT_3D ( 'NONE', #27, #26, #25 ) ;
#29 = CIRCLE ( 'NONE', #28, 0.2799999999999998600 ) ;
#30 = DIRECTION ( 'NONE',  ( -1.000000000000000000, 0.0000000000000000000, 0.0000000000000000000 ) ) ;
#31 = VECTOR ( 'NONE', #30, 39.37007874015748100 ) ;
#32 = CARTESIAN_POINT ( 'NONE',  ( -1.338582677165354400, 1.205361022782826000E-017, -0.09842519685039355400 ) ) ;
#33 = LINE ( 'NONE', #32, #31 ) ;
#34 = CARTESIAN_POINT ( 'NONE',  ( -1.338582677165354400, 0.0000000000000000000, 0.09842519685039360900 ) ) ;
#35 = DIRECTION ( 'NONE',  ( 0.0000000000000000000, 0.0000000000000000000, 1.000000000000000000 ) ) ;
#36 = DIRECTION ( 'NONE',  ( -1.000000000000000000, 0.0000000000000000000, 0.0000000000000000000 ) ) ;
#37 = CARTESIAN_POINT ( 'NONE',  ( -1.338582677165354400, 0.2799999999999998600, 0.0000000000000000000 ) ) ;
#38 = AXIS2_PLACEMENT_3D ( 'NONE', #37, #36, #35 ) ;
#39 = PLANE ( 'NONE',  #38 ) ;
#40 = FACE_OUTER_BOUND ( 'NONE', #3, .T. ) ;
#41 = FACE_BOUND ( 'NONE', #68, .T. ) ;
#42 = DIRECTION ( 'NONE',  ( 0.9995951032090332200, 0.0000000000000000000, -0.02845399164479517000 ) ) ;
#43 = VECTOR ( 'NONE', #42, 39.37007874015748900 ) ;
#44 = CARTESIAN_POINT ( 'NONE',  ( -0.1968503937007873800, 0.0000000000000000000, -0.3125000000000000000 ) ) ;
#45 = LINE ( 'NONE', #44, #43 ) ;
#46 = CARTESIAN_POINT ( 'NONE',  ( -0.1968503937007873800, 0.0000000000000000000, -0.3125000000000000000 ) ) ;
#47 = DIRECTION ( 'NONE',  ( 0.0000000000000000000, 0.0000000000000000000, -1.000000000000000000 ) ) ;
#48 = DIRECTION ( 'NONE',  ( 1.000000000000000000, 0.0000000000000000000, 0.0000000000000000000 ) ) ;
#49 = AXIS2_PLACEMENT_3D ( 'NONE', #74, #48, #47 ) ;
#50 = CIRCLE ( 'NONE', #49, 0.3125000000000000000 ) ;
#51 = VECTOR ( 'NONE', #189, 39.37007874015748100 ) ;
#52 = CARTESIAN_POINT ( 'NONE',  ( 0.0000000000000000000, 1.084824920504545200E-016, 0.8858267716535432900 ) ) ;
#53 = LINE ( 'NONE', #52, #51 ) ;
#54 = DIRECTION ( 'NONE',  ( -1.000000000000000000, 0.0000000000000000000, 0.0000000000000000000 ) ) ;
#55 = VECTOR ( 'NONE', #54, 39.37007874015748100 ) ;
#56 = CARTESIAN_POINT ( 'NONE',  ( -1.338582677165354400, 0.0000000000000000000, 0.09842519685039355400 ) ) ;
#57 = LINE ( 'NONE', #56, #55 ) ;
#58 = DIRECTION ( 'NONE',  ( 0.0000000000000000000, 0.0000000000000000000, 1.000000000000000000 ) ) ;
#59 = DIRECTION ( 'NONE',  ( -1.000000000000000000, 0.0000000000000000000, 0.0000000000000000000 ) ) ;
#60 = CARTESIAN_POINT ( 'NONE',  ( -1.338582677165354400, 0.0000000000000000000, 0.0000000000000000000 ) ) ;
#61 = AXIS2_PLACEMENT_3D ( 'NONE', #60, #59, #58 ) ;
#62 = CIRCLE ( 'NONE', #61, 0.09842519685039360900 ) ;
#63 = DIRECTION ( 'NONE',  ( 1.000000000000000000, 0.0000000000000000000, 0.0000000000000000000 ) ) ;
#64 = EDGE_CURVE ( 'NONE', #65, #235, #50, .T. ) ;
#65 = VERTEX_POINT ( 'NONE', #46 ) ;
#66 = ORIENTED_EDGE ( 'NONE', *, *, #67, .F. ) ;
#67 = EDGE_CURVE ( 'NONE', #231, #65, #45, .T. ) ;
#68 = EDGE_LOOP ( 'NONE', ( #5, #124 ) ) ;
#69 = ADVANCED_FACE ( 'NONE', ( #41, #40 ), #39, .T. ) ;
#70 = DIRECTION ( 'NONE',  ( 0.0000000000000000000, 0.0000000000000000000, 1.000000000000000000 ) ) ;
#71 = DIRECTION ( 'NONE',  ( -1.000000000000000000, 0.0000000000000000000, 0.0000000000000000000 ) ) ;
#72 = CARTESIAN_POINT ( 'NONE',  ( -1.338582677165354400, 0.0000000000000000000, 0.0000000000000000000 ) ) ;
#73 = AXIS2_PLACEMENT_3D ( 'NONE', #72, #71, #70 ) ;
#74 = CARTESIAN_POINT ( 'NONE',  ( -0.1968503937007873800, 0.0000000000000000000, 0.0000000000000000000 ) ) ;
#75 = CYLINDRICAL_SURFACE ( 'NONE', #73, 0.09842519685039355400 ) ;
#76 = FACE_OUTER_BOUND ( 'NONE', #13, .T. ) ;
#77 = DIRECTION ( 'NONE',  ( 0.0000000000000000000, 0.0000000000000000000, 1.000000000000000000 ) ) ;
#78 = DIRECTION ( 'NONE',  ( -1.000000000000000000, 0.0000000000000000000, 0.0000000000000000000 ) ) ;
#79 = CARTESIAN_POINT ( 'NONE',  ( -0.6692916771653545400, 0.0000000000000000000, 0.0000000000000000000 ) ) ;
#80 = AXIS2_PLACEMENT_3D ( 'NONE', #79, #78, #77 ) ;
#81 = VERTEX_POINT ( 'NONE', #34 ) ;
#82 = EDGE_CURVE ( 'NONE', #1, #165, #33, .T. ) ;
#83 = EDGE_CURVE ( 'NONE', #232, #231, #29, .T. ) ;
#84 = ADVANCED_FACE ( 'NONE', ( #24 ), #23, .T. ) ;
#85 = ORIENTED_EDGE ( 'NONE', *, *, #234, .F. ) ;
#86 = ORIENTED_EDGE ( 'NONE', *, *, #83, .T. ) ;
#87 = ORIENTED_EDGE ( 'NONE', *, *, #67, .T. ) ;
#88 = ORIENTED_EDGE ( 'NONE', *, *, #89, .F. ) ;
#89 = EDGE_CURVE ( 'NONE', #235, #65, #121, .T. ) ;
#90 = CYLINDRICAL_SURFACE ( 'NONE', #226, 0.8858267716535432900 ) ;
#91 = CARTESIAN_POINT ( 'NONE',  ( 0.0000000000000000000, 0.0000000000000000000, 0.0000000000000000000 ) ) ;
#92 = DIRECTION ( 'NONE',  ( 0.0000000000000000000, 0.0000000000000000000, -1.000000000000000000 ) ) ;
#93 = DIRECTION ( 'NONE',  ( 1.000000000000000000, 0.0000000000000000000, 0.0000000000000000000 ) ) ;
#94 = CARTESIAN_POINT ( 'NONE',  ( -0.1968503937007874400, 0.0000000000000000000, 0.0000000000000000000 ) ) ;
#95 = AXIS2_PLACEMENT_3D ( 'NONE', #94, #93, #92 ) ;
#96 = CIRCLE ( 'NONE', #95, 0.8858267716535432900 ) ;
#97 = FACE_OUTER_BOUND ( 'NONE', #142, .T. ) ;
#98 = CARTESIAN_POINT ( 'NONE',  ( -0.1968503937007874400, 1.084824920504545200E-016, 0.8858267716535432900 ) ) ;
#99 = CARTESIAN_POINT ( 'NONE',  ( -0.1968503937007874400, 0.0000000000000000000, -0.8858267716535432900 ) ) ;
#100 = DIRECTION ( 'NONE',  ( 0.0000000000000000000, 0.0000000000000000000, -1.000000000000000000 ) ) ;
#101 = DIRECTION ( 'NONE',  ( 1.000000000000000000, 0.0000000000000000000, 0.0000000000000000000 ) ) ;
#102 = CARTESIAN_POINT ( 'NONE',  ( -0.1968503937007874400, 0.0000000000000000000, 0.0000000000000000000 ) ) ;
#103 = AXIS2_PLACEMENT_3D ( 'NONE', #102, #101, #100 ) ;
#104 = DIRECTION ( 'NONE',  ( 0.0000000000000000000, 0.0000000000000000000, 1.000000000000000000 ) ) ;
#105 = DIRECTION ( 'NONE',  ( -1.000000000000000000, 0.0000000000000000000, 0.0000000000000000000 ) ) ;
#106 = CARTESIAN_POINT ( 'NONE',  ( -0.6692916771653545400, 0.0000000000000000000, 0.0000000000000000000 ) ) ;
#107 = AXIS2_PLACEMENT_3D ( 'NONE', #106, #105, #104 ) ;
#108 = CIRCLE ( 'NONE', #103, 0.8858267716535432900 ) ;
#109 = CONICAL_SURFACE ( 'NONE', #107, 0.09842519685039351200, 1.029744258676652100 ) ;
#110 = FACE_OUTER_BOUND ( 'NONE', #16, .T. ) ;
#111 = DIRECTION ( 'NONE',  ( 0.0000000000000000000, 0.0000000000000000000, 1.000000000000000000 ) ) ;
#112 = DIRECTION ( 'NONE',  ( -1.000000000000000000, 0.0000000000000000000, 0.0000000000000000000 ) ) ;
#113 = CARTESIAN_POINT ( 'NONE',  ( -0.1968503937007874100, 0.8858267716535432900, 0.0000000000000000000 ) ) ;
#114 = AXIS2_PLACEMENT_3D ( 'NONE', #113, #112, #111 ) ;
#115 = PLANE ( 'NONE',  #114 ) ;
#116 = FACE_OUTER_BOUND ( 'NONE', #135, .T. ) ;
#117 = FACE_BOUND ( 'NONE', #123, .T. ) ;
#118 = DIRECTION ( 'NONE',  ( 0.0000000000000000000, 0.0000000000000000000, -1.000000000000000000 ) ) ;
#119 = DIRECTION ( 'NONE',  ( 1.000000000000000000, 0.0000000000000000000, 0.0000000000000000000 ) ) ;
#120 = AXIS2_PLACEMENT_3D ( 'NONE', #22, #119, #118 ) ;
#121 = CIRCLE ( 'NONE', #120, 0.3125000000000000000 ) ;
#122 = ADVANCED_FACE ( 'NONE', ( #117, #116 ), #115, .T. ) ;
#123 = EDGE_LOOP ( 'NONE', ( #133, #134 ) ) ;
#124 = ORIENTED_EDGE ( 'NONE', *, *, #155, .F. ) ;
#125 = ORIENTED_EDGE ( 'NONE', *, *, #230, .F. ) ;
#126 = ORIENTED_EDGE ( 'NONE', *, *, #83, .F. ) ;
#127 = EDGE_LOOP ( 'NONE', ( #85, #86, #87, #88 ) ) ;
#128 = ORIENTED_EDGE ( 'NONE', *, *, #64, .F. ) ;
#129 = CARTESIAN_POINT ( 'NONE',  ( -0.6692916771653545400, 1.205361022782825900E-017, -0.09842519685039351200 ) ) ;
#130 = ADVANCED_FACE ( 'NONE', ( #110 ), #109, .F. ) ;
#131 = ORIENTED_EDGE ( 'NONE', *, *, #132, .T. ) ;
#132 = EDGE_CURVE ( 'NONE', #137, #138, #108, .T. ) ;
#133 = ORIENTED_EDGE ( 'NONE', *, *, #64, .T. ) ;
#134 = ORIENTED_EDGE ( 'NONE', *, *, #89, .T. ) ;
#135 = EDGE_LOOP ( 'NONE', ( #136, #139 ) ) ;
#136 = ORIENTED_EDGE ( 'NONE', *, *, #132, .F. ) ;
#137 = VERTEX_POINT ( 'NONE', #99 ) ;
#138 = VERTEX_POINT ( 'NONE', #98 ) ;
#139 = ORIENTED_EDGE ( 'NONE', *, *, #140, .F. ) ;
#140 = EDGE_CURVE ( 'NONE', #138, #137, #96, .T. ) ;
#141 = ADVANCED_FACE ( 'NONE', ( #97 ), #90, .T. ) ;
#142 = EDGE_LOOP ( 'NONE', ( #143, #144, #145, #146 ) ) ;
#143 = ORIENTED_EDGE ( 'NONE', *, *, #161, .F. ) ;
#144 = ORIENTED_EDGE ( 'NONE', *, *, #140, .T. ) ;
#145 = ORIENTED_EDGE ( 'NONE', *, *, #153, .T. ) ;
#146 = ORIENTED_EDGE ( 'NONE', *, *, #147, .F. ) ;
#147 = EDGE_CURVE ( 'NONE', #162, #163, #223, .T. ) ;
#148 = ADVANCED_FACE ( 'NONE', ( #219 ), #218, .T. ) ;
#149 = EDGE_LOOP ( 'NONE', ( #166, #167 ) ) ;
#150 = ORIENTED_EDGE ( 'NONE', *, *, #151, .F. ) ;
#151 = EDGE_CURVE ( 'NONE', #163, #162, #213, .T. ) ;
#152 = ORIENTED_EDGE ( 'NONE', *, *, #153, .F. ) ;
#153 = EDGE_CURVE ( 'NONE', #137, #163, #208, .T. ) ;
#154 = EDGE_LOOP ( 'NONE', ( #229, #233, #128, #66 ) ) ;
#155 = EDGE_CURVE ( 'NONE', #165, #81, #62, .T. ) ;
#156 = ORIENTED_EDGE ( 'NONE', *, *, #82, .T. ) ;
#157 = ORIENTED_EDGE ( 'NONE', *, *, #158, .F. ) ;
#158 = EDGE_CURVE ( 'NONE', #6, #81, #57, .T. ) ;
#159 = EDGE_LOOP ( 'NONE', ( #131, #160, #150, #152 ) ) ;
#160 = ORIENTED_EDGE ( 'NONE', *, *, #161, .T. ) ;
#161 = EDGE_CURVE ( 'NONE', #138, #162, #53, .T. ) ;
#162 = VERTEX_POINT ( 'NONE', #188 ) ;
#163 = VERTEX_POINT ( 'NONE', #187 ) ;
#164 = ADVANCED_FACE ( 'NONE', ( #186 ), #184, .T. ) ;
#165 = VERTEX_POINT ( 'NONE', #291 ) ;
#166 = ORIENTED_EDGE ( 'NONE', *, *, #151, .T. ) ;
#167 = ORIENTED_EDGE ( 'NONE', *, *, #147, .T. ) ;
#168 = ADVANCED_FACE ( 'NONE', ( #286 ), #285, .F. ) ;
#169 = EDGE_LOOP ( 'NONE', ( #170, #171, #173, #174 ) ) ;
#170 = ORIENTED_EDGE ( 'NONE', *, *, #82, .F. ) ;
#171 = ORIENTED_EDGE ( 'NONE', *, *, #172, .F. ) ;
#172 = EDGE_CURVE ( 'NONE', #6, #1, #260, .T. ) ;
#173 = ORIENTED_EDGE ( 'NONE', *, *, #158, .T. ) ;
#174 = ORIENTED_EDGE ( 'NONE', *, *, #4, .T. ) ;
#175 = ADVANCED_FACE ( 'NONE', ( #280 ), #279, .F. ) ;
#176 = EDGE_LOOP ( 'NONE', ( #177, #178, #179 ) ) ;
#177 = ORIENTED_EDGE ( 'NONE', *, *, #9, .F. ) ;
#178 = ORIENTED_EDGE ( 'NONE', *, *, #2, .T. ) ;
#179 = ORIENTED_EDGE ( 'NONE', *, *, #172, .T. ) ;
#180 = CLOSED_SHELL ( 'NONE', ( #130, #14, #164, #228, #69, #84, #122, #141, #148, #168, #175 ) ) ;
#181 = DIRECTION ( 'NONE',  ( 0.0000000000000000000, 0.0000000000000000000, -1.000000000000000000 ) ) ;
#182 = DIRECTION ( 'NONE',  ( 1.000000000000000000, 0.0000000000000000000, 0.0000000000000000000 ) ) ;
#183 = AXIS2_PLACEMENT_3D ( 'NONE', #185, #182, #181 ) ;
#184 = CYLINDRICAL_SURFACE ( 'NONE', #183, 0.8858267716535432900 ) ;
#185 = CARTESIAN_POINT ( 'NONE',  ( 0.0000000000000000000, 0.0000000000000000000, 0.0000000000000000000 ) ) ;
#186 = FACE_OUTER_BOUND ( 'NONE', #159, .T. ) ;
#187 = CARTESIAN_POINT ( 'NONE',  ( 0.0000000000000000000, 0.0000000000000000000, -0.8858267716535432900 ) ) ;
#188 = CARTESIAN_POINT ( 'NONE',  ( 0.0000000000000000000, 1.084824920504545200E-016, 0.8858267716535432900 ) ) ;
#189 = DIRECTION ( 'NONE',  ( 1.000000000000000000, 0.0000000000000000000, 0.0000000000000000000 ) ) ;
#190 = CIRCLE ( 'NONE', #80, 0.09842519685039351200 ) ;
#191 = DIRECTION ( 'NONE',  ( -0.5150380749100561500, 1.049727191138617100E-016, -0.8571673007021108900 ) ) ;
#192 = VECTOR ( 'NONE', #191, 39.37007874015748900 ) ;
#193 = CARTESIAN_POINT ( 'NONE',  ( -0.6692916771653545400, 1.205361022782825700E-017, -0.09842519685039351200 ) ) ;
#194 = LINE ( 'NONE', #193, #192 ) ;
#195 = CARTESIAN_POINT ( 'NONE',  ( -0.6101518524579173700, -1.747773991219904900E-016, 0.0000000000000000000 ) ) ;
#196 = CARTESIAN_POINT ( 'NONE',  ( -0.6692916771653545400, 0.0000000000000000000, 0.09842519685039351200 ) ) ;
#197 = DIRECTION ( 'NONE',  ( 0.0000000000000000000, 0.0000000000000000000, 1.000000000000000000 ) ) ;
#198 = DIRECTION ( 'NONE',  ( -1.000000000000000000, 0.0000000000000000000, 0.0000000000000000000 ) ) ;
#199 = CARTESIAN_POINT ( 'NONE',  ( -1.338582677165354400, 0.0000000000000000000, 0.0000000000000000000 ) ) ;
#200 = AXIS2_PLACEMENT_3D ( 'NONE', #199, #198, #197 ) ;
#201 = CIRCLE ( 'NONE', #200, 0.09842519685039360900 ) ;
#202 = DIRECTION ( 'NONE',  ( -0.5150380749100561500, 0.0000000000000000000, 0.8571673007021108900 ) ) ;
#203 = VECTOR ( 'NONE', #202, 39.37007874015748900 ) ;
#204 = CARTESIAN_POINT ( 'NONE',  ( -0.6692916771653545400, 0.0000000000000000000, 0.09842519685039351200 ) ) ;
#205 = LINE ( 'NONE', #204, #203 ) ;
#206 = VECTOR ( 'NONE', #63, 39.37007874015748100 ) ;
#207 = CARTESIAN_POINT ( 'NONE',  ( 0.0000000000000000000, 0.0000000000000000000, -0.8858267716535432900 ) ) ;
#208 = LINE ( 'NONE', #207, #206 ) ;
#209 = DIRECTION ( 'NONE',  ( 0.0000000000000000000, 0.0000000000000000000, -1.000000000000000000 ) ) ;
#210 = DIRECTION ( 'NONE',  ( 1.000000000000000000, 0.0000000000000000000, 0.0000000000000000000 ) ) ;
#211 = CARTESIAN_POINT ( 'NONE',  ( 0.0000000000000000000, 0.0000000000000000000, 0.0000000000000000000 ) ) ;
#212 = AXIS2_PLACEMENT_3D ( 'NONE', #211, #210, #209 ) ;
#213 = CIRCLE ( 'NONE', #212, 0.8858267716535432900 ) ;
#214 = DIRECTION ( 'NONE',  ( 0.0000000000000000000, 0.0000000000000000000, -1.000000000000000000 ) ) ;
#215 = DIRECTION ( 'NONE',  ( 1.000000000000000000, 0.0000000000000000000, 0.0000000000000000000 ) ) ;
#216 = CARTESIAN_POINT ( 'NONE',  ( 0.0000000000000000000, 0.0000000000000000000, 0.0000000000000000000 ) ) ;
#217 = AXIS2_PLACEMENT_3D ( 'NONE', #216, #215, #214 ) ;
#218 = PLANE ( 'NONE',  #217 ) ;
#219 = FACE_OUTER_BOUND ( 'NONE', #149, .T. ) ;
#220 = DIRECTION ( 'NONE',  ( 0.0000000000000000000, 0.0000000000000000000, -1.000000000000000000 ) ) ;
#221 = DIRECTION ( 'NONE',  ( 1.000000000000000000, 0.0000000000000000000, 0.0000000000000000000 ) ) ;
#222 = AXIS2_PLACEMENT_3D ( 'NONE', #227, #221, #220 ) ;
#223 = CIRCLE ( 'NONE', #222, 0.8858267716535432900 ) ;
#224 = DIRECTION ( 'NONE',  ( 0.0000000000000000000, 0.0000000000000000000, -1.000000000000000000 ) ) ;
#225 = DIRECTION ( 'NONE',  ( 1.000000000000000000, 0.0000000000000000000, 0.0000000000000000000 ) ) ;
#226 = AXIS2_PLACEMENT_3D ( 'NONE', #91, #225, #224 ) ;
#227 = CARTESIAN_POINT ( 'NONE',  ( 0.0000000000000000000, 0.0000000000000000000, 0.0000000000000000000 ) ) ;
#228 = ADVANCED_FACE ( 'NONE', ( #278 ), #273, .T. ) ;
#229 = ORIENTED_EDGE ( 'NONE', *, *, #230, .T. ) ;
#230 = EDGE_CURVE ( 'NONE', #231, #232, #267, .T. ) ;
#231 = VERTEX_POINT ( 'NONE', #263 ) ;
#232 = VERTEX_POINT ( 'NONE', #262 ) ;
#233 = ORIENTED_EDGE ( 'NONE', *, *, #234, .T. ) ;
#234 = EDGE_CURVE ( 'NONE', #232, #235, #261, .T. ) ;
#235 = VERTEX_POINT ( 'NONE', #299 ) ;
#236 = ORIENTED_EDGE ( 'NONE', *, *, #155, .T. ) ;
#237 = PRODUCT_DEFINITION_SHAPE ( 'NONE', 'NONE',  #329 ) ;
#238 = PRODUCT_RELATED_PRODUCT_CATEGORY ( 'detail', '', ( #356 ) ) ;
#239 = CC_DESIGN_SECURITY_CLASSIFICATION ( #341, ( #308 ) ) ;
#240 = CC_DESIGN_APPROVAL ( #248, ( #341 ) ) ;
#241 = APPROVAL_DATE_TIME ( #242, #248 ) ;
#242 = DATE_AND_TIME ( #243, #244 ) ;
#243 = CALENDAR_DATE ( 2009, 29, 7 ) ;
#244 = LOCAL_TIME ( 22, 0, 51.00000000000000000, #245 ) ;
#245 = COORDINATED_UNIVERSAL_TIME_OFFSET ( 6, 0, .BEHIND. ) ;
#246 = APPROVAL_PERSON_ORGANIZATION ( #250, #248, #247 ) ;
#247 = APPROVAL_ROLE ( '' ) ;
#248 = APPROVAL ( #249, 'UNSPECIFIED' ) ;
#249 = APPROVAL_STATUS ( 'not_yet_approved' ) ;
#250 = PERSON_AND_ORGANIZATION ( #355, #336 ) ;
#251 = CC_DESIGN_DATE_AND_TIME_ASSIGNMENT ( #253, #252, ( #341 ) ) ;
#252 = DATE_TIME_ROLE ( 'classification_date' ) ;
#253 = DATE_AND_TIME ( #254, #255 ) ;
#254 = CALENDAR_DATE ( 2009, 29, 7 ) ;
#255 = LOCAL_TIME ( 22, 0, 51.00000000000000000, #337 ) ;
#256 = DIRECTION ( 'NONE',  ( 0.0000000000000000000, 0.0000000000000000000, 1.000000000000000000 ) ) ;
#257 = DIRECTION ( 'NONE',  ( -1.000000000000000000, 0.0000000000000000000, 0.0000000000000000000 ) ) ;
#258 = CARTESIAN_POINT ( 'NONE',  ( -1.338582677165354400, 0.0000000000000000000, 0.0000000000000000000 ) ) ;
#259 = AXIS2_PLACEMENT_3D ( 'NONE', #258, #257, #256 ) ;
#260 = CIRCLE ( 'NONE', #284, 0.09842519685039351200 ) ;
#261 = LINE ( 'NONE', #302, #301 ) ;
#262 = CARTESIAN_POINT ( 'NONE',  ( -1.338582677165354400, 3.628016142474033500E-017, 0.2799999999999998600 ) ) ;
#263 = CARTESIAN_POINT ( 'NONE',  ( -1.338582677165354400, 0.0000000000000000000, -0.2799999999999998600 ) ) ;
#264 = DIRECTION ( 'NONE',  ( 0.0000000000000000000, 0.0000000000000000000, -1.000000000000000000 ) ) ;
#265 = DIRECTION ( 'NONE',  ( 1.000000000000000000, 0.0000000000000000000, 0.0000000000000000000 ) ) ;
#266 = AXIS2_PLACEMENT_3D ( 'NONE', #272, #265, #264 ) ;
#267 = CIRCLE ( 'NONE', #266, 0.2799999999999998600 ) ;
#268 = DIRECTION ( 'NONE',  ( 0.0000000000000000000, 0.0000000000000000000, -1.000000000000000000 ) ) ;
#269 = DIRECTION ( 'NONE',  ( 1.000000000000000000, 0.0000000000000000000, 0.0000000000000000000 ) ) ;
#270 = CARTESIAN_POINT ( 'NONE',  ( -0.1968503937007873800, 0.0000000000000000000, 0.0000000000000000000 ) ) ;
#271 = AXIS2_PLACEMENT_3D ( 'NONE', #270, #269, #268 ) ;
#272 = CARTESIAN_POINT ( 'NONE',  ( -1.338582677165354400, 0.0000000000000000000, 0.0000000000000000000 ) ) ;
#273 = CONICAL_SURFACE ( 'NONE', #271, 0.3125000000000000000, 0.02845783257684384900 ) ;
#274 = DIRECTION ( 'NONE',  ( 0.0000000000000000000, 0.0000000000000000000, 1.000000000000000000 ) ) ;
#275 = DIRECTION ( 'NONE',  ( -1.000000000000000000, 0.0000000000000000000, 0.0000000000000000000 ) ) ;
#276 = CARTESIAN_POINT ( 'NONE',  ( -0.6692916771653545400, 0.0000000000000000000, 0.0000000000000000000 ) ) ;
#277 = AXIS2_PLACEMENT_3D ( 'NONE', #276, #275, #274 ) ;
#278 = FACE_OUTER_BOUND ( 'NONE', #154, .T. ) ;
#279 = CONICAL_SURFACE ( 'NONE', #277, 0.09842519685039351200, 1.029744258676652100 ) ;
#280 = FACE_OUTER_BOUND ( 'NONE', #176, .T. ) ;
#281 = DIRECTION ( 'NONE',  ( 0.0000000000000000000, 0.0000000000000000000, 1.000000000000000000 ) ) ;
#282 = DIRECTION ( 'NONE',  ( -1.000000000000000000, 0.0000000000000000000, 0.0000000000000000000 ) ) ;
#283 = CARTESIAN_POINT ( 'NONE',  ( -0.6692916771653545400, 0.0000000000000000000, 0.0000000000000000000 ) ) ;
#284 = AXIS2_PLACEMENT_3D ( 'NONE', #283, #282, #281 ) ;
#285 = CYLINDRICAL_SURFACE ( 'NONE', #259, 0.09842519685039355400 ) ;
#286 = FACE_OUTER_BOUND ( 'NONE', #169, .T. ) ;
#287 = SHAPE_DEFINITION_REPRESENTATION ( #237, #288 ) ;
#288 = ADVANCED_BREP_SHAPE_REPRESENTATION ( 'GSB JT33', ( #17, #362 ), #289 ) ;
#289 =( GEOMETRIC_REPRESENTATION_CONTEXT ( 3 ) GLOBAL_UNCERTAINTY_ASSIGNED_CONTEXT ( ( #290 ) ) GLOBAL_UNIT_ASSIGNED_CONTEXT ( ( #294, #293, #292 ) ) REPRESENTATION_CONTEXT ( 'NONE', 'WORKASPACE' ) );
#290 = UNCERTAINTY_MEASURE_WITH_UNIT (LENGTH_MEASURE( 1.000000000000000100E-005 ), #294, 'distance_accuracy_value', 'NONE');
#291 = CARTESIAN_POINT ( 'NONE',  ( -1.338582677165354400, 1.205361022782826600E-017, -0.09842519685039360900 ) ) ;
#292 =( NAMED_UNIT ( * ) SI_UNIT ( $, .STERADIAN. ) SOLID_ANGLE_UNIT ( ) );
#293 =( NAMED_UNIT ( * ) PLANE_ANGLE_UNIT ( ) SI_UNIT ( $, .RADIAN. ) );
#294 =( CONVERSION_BASED_UNIT ( 'INCH', #295 ) LENGTH_UNIT ( ) NAMED_UNIT ( #296 ) );
#295 = LENGTH_MEASURE_WITH_UNIT ( LENGTH_MEASURE( 0.02539999999999999900 ), #297 );
#296 = DIMENSIONAL_EXPONENTS ( 1.000000000000000000, 0.0000000000000000000, 0.0000000000000000000, 0.0000000000000000000, 0.0000000000000000000, 0.0000000000000000000, 0.0000000000000000000 ) ;
#297 =( LENGTH_UNIT ( ) NAMED_UNIT ( * ) SI_UNIT ( $, .METRE. ) );
#298 = DIRECTION ( 'NONE',  ( 0.0000000000000000000, 0.0000000000000000000, 1.000000000000000000 ) ) ;
#299 = CARTESIAN_POINT ( 'NONE',  ( -0.1968503937007873800, 3.827021247335478900E-017, 0.3125000000000000000 ) ) ;
#300 = DIRECTION ( 'NONE',  ( 0.9995951032090332200, 3.484608979076393700E-018, 0.02845399164479517000 ) ) ;
#301 = VECTOR ( 'NONE', #300, 39.37007874015748900 ) ;
#302 = CARTESIAN_POINT ( 'NONE',  ( -0.1968503937007873800, 3.827021247335478900E-017, 0.3125000000000000000 ) ) ;
#303 = DATE_AND_TIME ( #351, #352 ) ;
#304 = APPROVAL_ROLE ( '' ) ;
#305 = APPROVAL ( #306, 'UNSPECIFIED' ) ;
#306 = APPROVAL_STATUS ( 'not_yet_approved' ) ;
#307 = PERSON_AND_ORGANIZATION ( #355, #336 ) ;
#308 = PRODUCT_DEFINITION_FORMATION_WITH_SPECIFIED_SOURCE ( 'ANY', '', #356, .NOT_KNOWN. ) ;
#309 = CC_DESIGN_DATE_AND_TIME_ASSIGNMENT ( #311, #310, ( #329 ) ) ;
#310 = DATE_TIME_ROLE ( 'creation_date' ) ;
#311 = DATE_AND_TIME ( #312, #313 ) ;
#312 = CALENDAR_DATE ( 2009, 29, 7 ) ;
#313 = LOCAL_TIME ( 22, 0, 51.00000000000000000, #314 ) ;
#314 = COORDINATED_UNIVERSAL_TIME_OFFSET ( 6, 0, .BEHIND. ) ;
#315 = CC_DESIGN_PERSON_AND_ORGANIZATION_ASSIGNMENT ( #317, #316, ( #329 ) ) ;
#316 = PERSON_AND_ORGANIZATION_ROLE ( 'creator' ) ;
#317 = PERSON_AND_ORGANIZATION ( #355, #336 ) ;
#318 = CC_DESIGN_APPROVAL ( #326, ( #329 ) ) ;
#319 = APPROVAL_DATE_TIME ( #320, #326 ) ;
#320 = DATE_AND_TIME ( #321, #322 ) ;
#321 = CALENDAR_DATE ( 2009, 29, 7 ) ;
#322 = LOCAL_TIME ( 22, 0, 51.00000000000000000, #323 ) ;
#323 = COORDINATED_UNIVERSAL_TIME_OFFSET ( 6, 0, .BEHIND. ) ;
#324 = APPROVAL_PERSON_ORGANIZATION ( #328, #326, #325 ) ;
#325 = APPROVAL_ROLE ( '' ) ;
#326 = APPROVAL ( #327, 'UNSPECIFIED' ) ;
#327 = APPROVAL_STATUS ( 'not_yet_approved' ) ;
#328 = PERSON_AND_ORGANIZATION ( #355, #336 ) ;
#329 = PRODUCT_DEFINITION ( 'UNKNOWN', '', #308, #330 ) ;
#330 = DESIGN_CONTEXT ( 'detailed design', #332, 'design' ) ;
#331 = APPLICATION_PROTOCOL_DEFINITION ( 'international standard', 'config_control_design', 1994, #332 ) ;
#332 = APPLICATION_CONTEXT ( 'configuration controlled 3d designs of mechanical parts and assemblies' ) ;
#333 = CC_DESIGN_PERSON_AND_ORGANIZATION_ASSIGNMENT ( #335, #334, ( #356 ) ) ;
#334 = PERSON_AND_ORGANIZATION_ROLE ( 'design_owner' ) ;
#335 = PERSON_AND_ORGANIZATION ( #355, #336 ) ;
#336 = ORGANIZATION ( 'UNSPECIFIED', 'UNSPECIFIED', '' ) ;
#337 = COORDINATED_UNIVERSAL_TIME_OFFSET ( 6, 0, .BEHIND. ) ;
#338 = CC_DESIGN_PERSON_AND_ORGANIZATION_ASSIGNMENT ( #340, #339, ( #341 ) ) ;
#339 = PERSON_AND_ORGANIZATION_ROLE ( 'classification_officer' ) ;
#340 = PERSON_AND_ORGANIZATION ( #355, #336 ) ;
#341 = SECURITY_CLASSIFICATION ( '', '', #342 ) ;
#342 = SECURITY_CLASSIFICATION_LEVEL ( 'unclassified' ) ;
#343 = CC_DESIGN_PERSON_AND_ORGANIZATION_ASSIGNMENT ( #345, #344, ( #308 ) ) ;
#344 = PERSON_AND_ORGANIZATION_ROLE ( 'design_supplier' ) ;
#345 = PERSON_AND_ORGANIZATION ( #355, #336 ) ;
#346 = CC_DESIGN_PERSON_AND_ORGANIZATION_ASSIGNMENT ( #348, #347, ( #308 ) ) ;
#347 = PERSON_AND_ORGANIZATION_ROLE ( 'creator' ) ;
#348 = PERSON_AND_ORGANIZATION ( #355, #336 ) ;
#349 = CC_DESIGN_APPROVAL ( #305, ( #308 ) ) ;
#350 = APPROVAL_DATE_TIME ( #303, #305 ) ;
#351 = CALENDAR_DATE ( 2009, 29, 7 ) ;
#352 = LOCAL_TIME ( 22, 0, 51.00000000000000000, #353 ) ;
#353 = COORDINATED_UNIVERSAL_TIME_OFFSET ( 6, 0, .BEHIND. ) ;
#354 = APPROVAL_PERSON_ORGANIZATION ( #307, #305, #304 ) ;
#355 = PERSON ( 'UNSPECIFIED', 'UNSPECIFIED', 'UNSPECIFIED', ('UNSPECIFIED'), ('UNSPECIFIED'), ('UNSPECIFIED') ) ;
#356 = PRODUCT ( 'GSB JT33', 'GSB JT33', '', ( #357 ) ) ;
#357 = MECHANICAL_CONTEXT ( 'NONE', #359, 'mechanical' ) ;
#358 = APPLICATION_PROTOCOL_DEFINITION ( 'international standard', 'config_control_design', 1994, #359 ) ;
#359 = APPLICATION_CONTEXT ( 'configuration controlled 3d designs of mechanical parts and assemblies' ) ;
#360 = DIRECTION ( 'NONE',  ( 1.000000000000000000, 0.0000000000000000000, 0.0000000000000000000 ) ) ;
#361 = CARTESIAN_POINT ( 'NONE',  ( 0.0000000000000000000, 0.0000000000000000000, 0.0000000000000000000 ) ) ;
#362 = AXIS2_PLACEMENT_3D ( 'NONE', #361, #298, #360 ) ;
ENDSEC;
END-ISO-10303-21;
